ISO-10303-21;
HEADER;
FILE_DESCRIPTION (( 'STEP AP203' ),
    '1' );
FILE_NAME ('BK7-LPBSC-10-1064.STEP',
    '2020-12-22T03:09:36',
    ( '' ),
    ( '' ),
    'SwSTEP 2.0',
    'SolidWorks 2020',
    '' );
FILE_SCHEMA (( 'CONFIG_CONTROL_DESIGN' ));
ENDSEC;

DATA;
#1 = LOCAL_TIME ( 11, 9, 36.00000000000000000, #81 ) ;
#2 = DIRECTION ( 'NONE',  ( 1.000000000000000000, 0.000000000000000000, 0.000000000000000000 ) ) ;
#3 = FACE_OUTER_BOUND ( 'NONE', #230, .T. ) ;
#4 = DIRECTION ( 'NONE',  ( 0.000000000000000000, -0.000000000000000000, 1.000000000000000000 ) ) ;
#5 = VECTOR ( 'NONE', #299, 1000.000000000000000 ) ;
#6 = DIRECTION ( 'NONE',  ( -0.7071067811865474617, 0.7071067811865475727, 0.000000000000000000 ) ) ;
#7 = CARTESIAN_POINT ( 'NONE',  ( 5.000000000000000888, 5.000000000000001776, 5.000000000000000000 ) ) ;
#8 = AXIS2_PLACEMENT_3D ( 'NONE', #250, #6, #306 ) ;
#9 = DIRECTION ( 'NONE',  ( 2.220446049250313081E-16, 1.000000000000000000, 0.000000000000000000 ) ) ;
#10 = LINE ( 'NONE', #53, #241 ) ;
#11 = VECTOR ( 'NONE', #212, 1000.000000000000000 ) ;
#12 = APPROVAL ( #84, 'UNSPECIFIED' ) ;
#13 = ORIENTED_EDGE ( 'NONE', *, *, #225, .T. ) ;
#14 = DATE_AND_TIME ( #200, #33 ) ;
#15 = APPROVAL_DATE_TIME ( #229, #296 ) ;
#16 = VERTEX_POINT ( 'NONE', #144 ) ;
#17 = ORIENTED_EDGE ( 'NONE', *, *, #138, .F. ) ;
#18 = PERSON_AND_ORGANIZATION_ROLE ( 'classification_officer' ) ;
#19 = PRODUCT ( 'BK7-LPBSC-10-1064', 'BK7-LPBSC-10-1064', '', ( #58 ) ) ;
#20 = ORIENTED_EDGE ( 'NONE', *, *, #104, .T. ) ;
#21 = CARTESIAN_POINT ( 'NONE',  ( -4.999999999999999112, -5.000000000000000000, 5.000000000000000000 ) ) ;
#22 = ORIENTED_EDGE ( 'NONE', *, *, #170, .F. ) ;
#23 = CARTESIAN_POINT ( 'NONE',  ( -4.999999999999999112, -5.000000000000000000, 5.000000000000000000 ) ) ;
#24 = AXIS2_PLACEMENT_3D ( 'NONE', #21, #266, #183 ) ;
#25 = PLANE ( 'NONE',  #24 ) ;
#26 = DIRECTION ( 'NONE',  ( -0.000000000000000000, -0.000000000000000000, -1.000000000000000000 ) ) ;
#27 = CARTESIAN_POINT ( 'NONE',  ( 5.000000000000002665, 5.000000000000000000, 5.000000000000000000 ) ) ;
#28 = EDGE_CURVE ( 'NONE', #16, #180, #158, .T. ) ;
#29 = CARTESIAN_POINT ( 'NONE',  ( 5.000000000000002665, 5.000000000000000000, 5.000000000000000000 ) ) ;
#30 = DIRECTION ( 'NONE',  ( -0.000000000000000000, 0.000000000000000000, -1.000000000000000000 ) ) ;
#31 = EDGE_CURVE ( 'NONE', #179, #254, #300, .T. ) ;
#32 = VECTOR ( 'NONE', #30, 1000.000000000000000 ) ;
#33 = LOCAL_TIME ( 11, 9, 36.00000000000000000, #310 ) ;
#34 = PERSON_AND_ORGANIZATION_ROLE ( 'creator' ) ;
#35 = APPROVAL_DATE_TIME ( #14, #146 ) ;
#36 = VERTEX_POINT ( 'NONE', #298 ) ;
#37 = ADVANCED_FACE ( 'NONE', ( #109 ), #43, .F. ) ;
#38 = EDGE_LOOP ( 'NONE', ( #22, #239, #209 ) ) ;
#39 = PRODUCT_DEFINITION_FORMATION_WITH_SPECIFIED_SOURCE ( 'ANY', '', #19, .NOT_KNOWN. ) ;
#40 = ORIENTED_EDGE ( 'NONE', *, *, #72, .F. ) ;
#41 = FACE_OUTER_BOUND ( 'NONE', #289, .T. ) ;
#42 = VECTOR ( 'NONE', #2, 1000.000000000000000 ) ;
#43 = PLANE ( 'NONE',  #74 ) ;
#44 = ORIENTED_EDGE ( 'NONE', *, *, #54, .T. ) ;
#45 = CARTESIAN_POINT ( 'NONE',  ( 5.000000000000000888, 5.000000000000001776, 5.000000000000000000 ) ) ;
#46 = AXIS2_PLACEMENT_3D ( 'NONE', #29, #168, #280 ) ;
#47 = LOCAL_TIME ( 11, 9, 36.00000000000000000, #102 ) ;
#48 = LINE ( 'NONE', #113, #85 ) ;
#49 = PLANE ( 'NONE',  #135 ) ;
#50 = DIRECTION ( 'NONE',  ( 2.220446049250313081E-16, 1.000000000000000000, 0.000000000000000000 ) ) ;
#51 = AXIS2_PLACEMENT_3D ( 'NONE', #260, #154, #151 ) ;
#52 = LINE ( 'NONE', #90, #112 ) ;
#53 = CARTESIAN_POINT ( 'NONE',  ( 5.000000000000002665, 5.000000000000000000, -5.000000000000000000 ) ) ;
#54 = EDGE_CURVE ( 'NONE', #83, #297, #265, .T. ) ;
#55 = CALENDAR_DATE ( 2020, 22, 12 ) ;
#56 = EDGE_CURVE ( 'NONE', #36, #16, #214, .T. ) ;
#57 = APPLICATION_PROTOCOL_DEFINITION ( 'international standard', 'config_control_design', 1994, #92 ) ;
#58 = MECHANICAL_CONTEXT ( 'NONE', #92, 'mechanical' ) ;
#59 = CC_DESIGN_PERSON_AND_ORGANIZATION_ASSIGNMENT ( #149, #18, ( #110 ) ) ;
#60 = AXIS2_PLACEMENT_3D ( 'NONE', #76, #248, #281 ) ;
#61 = EDGE_CURVE ( 'NONE', #202, #63, #210, .T. ) ;
#62 = PERSON_AND_ORGANIZATION ( #235, #277 ) ;
#63 = VERTEX_POINT ( 'NONE', #67 ) ;
#64 = CC_DESIGN_DATE_AND_TIME_ASSIGNMENT ( #77, #174, ( #110 ) ) ;
#65 = ORIENTED_EDGE ( 'NONE', *, *, #111, .F. ) ;
#66 = ORIENTED_EDGE ( 'NONE', *, *, #160, .T. ) ;
#67 = CARTESIAN_POINT ( 'NONE',  ( -5.000000000000000888, -4.999999999999998224, -5.000000000000000000 ) ) ;
#68 = DIRECTION ( 'NONE',  ( -0.000000000000000000, 0.000000000000000000, -1.000000000000000000 ) ) ;
#69 = DIRECTION ( 'NONE',  ( -1.000000000000000000, 4.857225732735059864E-17, 0.000000000000000000 ) ) ;
#70 = PLANE ( 'NONE',  #257 ) ;
#71 = CARTESIAN_POINT ( 'NONE',  ( 5.000000000000000888, 5.000000000000001776, -5.000000000000000000 ) ) ;
#72 = EDGE_CURVE ( 'NONE', #16, #105, #271, .T. ) ;
#73 = CARTESIAN_POINT ( 'NONE',  ( 5.000000000000000888, -5.000000000000000000, -5.000000000000000000 ) ) ;
#74 = AXIS2_PLACEMENT_3D ( 'NONE', #181, #292, #69 ) ;
#75 = FACE_OUTER_BOUND ( 'NONE', #232, .T. ) ;
#76 = CARTESIAN_POINT ( 'NONE',  ( 0.000000000000000000, 0.000000000000000000, 5.000000000000000000 ) ) ;
#77 = DATE_AND_TIME ( #314, #305 ) ;
#78 = COORDINATED_UNIVERSAL_TIME_OFFSET ( 8, 0, .AHEAD. ) ;
#79 = ADVANCED_FACE ( 'NONE', ( #41 ), #25, .F. ) ;
#80 = ORIENTED_EDGE ( 'NONE', *, *, #312, .T. ) ;
#81 = COORDINATED_UNIVERSAL_TIME_OFFSET ( 8, 0, .AHEAD. ) ;
#82 = ORIENTED_EDGE ( 'NONE', *, *, #170, .T. ) ;
#83 = VERTEX_POINT ( 'NONE', #131 ) ;
#84 = APPROVAL_STATUS ( 'not_yet_approved' ) ;
#85 = VECTOR ( 'NONE', #217, 1000.000000000000000 ) ;
#86 = ORIENTED_EDGE ( 'NONE', *, *, #100, .T. ) ;
#87 = DIRECTION ( 'NONE',  ( 1.734723475976807094E-16, 1.000000000000000000, -0.000000000000000000 ) ) ;
#88 = ORIENTED_EDGE ( 'NONE', *, *, #225, .F. ) ;
#89 = DIRECTION ( 'NONE',  ( -0.7071067811865475727, -0.7071067811865474617, 0.000000000000000000 ) ) ;
#90 = CARTESIAN_POINT ( 'NONE',  ( 5.000000000000000888, -5.000000000000000000, 5.000000000000000000 ) ) ;
#91 = FACE_OUTER_BOUND ( 'NONE', #106, .T. ) ;
#92 = APPLICATION_CONTEXT ( 'configuration controlled 3d designs of mechanical parts and assemblies' ) ;
#93 = DIRECTION ( 'NONE',  ( -0.7071067811865475727, -0.7071067811865474617, 0.000000000000000000 ) ) ;
#94 = CARTESIAN_POINT ( 'NONE',  ( 0.000000000000000000, 0.000000000000000000, 5.000000000000000000 ) ) ;
#95 = CARTESIAN_POINT ( 'NONE',  ( 5.000000000000002665, 5.000000000000000000, -5.000000000000000000 ) ) ;
#96 = CARTESIAN_POINT ( 'NONE',  ( 0.000000000000000000, 0.000000000000000000, -5.000000000000000000 ) ) ;
#97 = LOCAL_TIME ( 11, 9, 36.00000000000000000, #78 ) ;
#98 = MANIFOLD_SOLID_BREP ( '¾µÏ', #308 ) ;
#99 =( NAMED_UNIT ( * ) SI_UNIT ( $, .STERADIAN. ) SOLID_ANGLE_UNIT ( ) );
#100 = EDGE_CURVE ( 'NONE', #63, #179, #107, .T. ) ;
#101 =( LENGTH_UNIT ( ) NAMED_UNIT ( * ) SI_UNIT ( .MILLI., .METRE. ) );
#102 = COORDINATED_UNIVERSAL_TIME_OFFSET ( 8, 0, .AHEAD. ) ;
#103 = CALENDAR_DATE ( 2020, 22, 12 ) ;
#104 = EDGE_CURVE ( 'NONE', #297, #254, #184, .T. ) ;
#105 = VERTEX_POINT ( 'NONE', #23 ) ;
#106 = EDGE_LOOP ( 'NONE', ( #130, #161, #133 ) ) ;
#107 = LINE ( 'NONE', #162, #11 ) ;
#108 = ORIENTED_EDGE ( 'NONE', *, *, #61, .T. ) ;
#109 = FACE_OUTER_BOUND ( 'NONE', #236, .T. ) ;
#110 = SECURITY_CLASSIFICATION ( '', '', #237 ) ;
#111 = EDGE_CURVE ( 'NONE', #105, #127, #134, .T. ) ;
#112 = VECTOR ( 'NONE', #26, 1000.000000000000000 ) ;
#113 = CARTESIAN_POINT ( 'NONE',  ( -4.999999999999999112, -5.000000000000000000, 5.000000000000000000 ) ) ;
#114 = CC_DESIGN_DATE_AND_TIME_ASSIGNMENT ( #256, #309, ( #284 ) ) ;
#115 = DIRECTION ( 'NONE',  ( -1.000000000000000000, 1.734723475976807094E-16, 0.000000000000000000 ) ) ;
#116 = DESIGN_CONTEXT ( 'detailed design', #192, 'design' ) ;
#117 = CARTESIAN_POINT ( 'NONE',  ( -4.999999999999999112, -5.000000000000000000, -5.000000000000000000 ) ) ;
#118 = CARTESIAN_POINT ( 'NONE',  ( 5.000000000000002665, 5.000000000000000000, -5.000000000000000000 ) ) ;
#119 = CC_DESIGN_PERSON_AND_ORGANIZATION_ASSIGNMENT ( #206, #290, ( #39 ) ) ;
#120 = EDGE_CURVE ( 'NONE', #105, #36, #48, .T. ) ;
#121 = VECTOR ( 'NONE', #93, 1000.000000000000000 ) ;
#122 = PLANE ( 'NONE',  #167 ) ;
#123 =( GEOMETRIC_REPRESENTATION_CONTEXT ( 3 ) GLOBAL_UNCERTAINTY_ASSIGNED_CONTEXT ( ( #244 ) ) GLOBAL_UNIT_ASSIGNED_CONTEXT ( ( #101, #278, #99 ) ) REPRESENTATION_CONTEXT ( 'NONE', 'WORKASPACE' ) );
#124 = APPROVAL_ROLE ( '' ) ;
#125 = ADVANCED_FACE ( 'NONE', ( #245 ), #243, .F. ) ;
#126 = PERSON_AND_ORGANIZATION ( #235, #277 ) ;
#127 = VERTEX_POINT ( 'NONE', #190 ) ;
#128 = PERSON_AND_ORGANIZATION_ROLE ( 'design_supplier' ) ;
#129 = CC_DESIGN_APPROVAL ( #296, ( #284 ) ) ;
#130 = ORIENTED_EDGE ( 'NONE', *, *, #72, .T. ) ;
#131 = CARTESIAN_POINT ( 'NONE',  ( -4.999999999999999112, 5.000000000000001776, 5.000000000000000000 ) ) ;
#132 = CLOSED_SHELL ( 'NONE', ( #316, #79, #125, #269, #234 ) ) ;
#133 = ORIENTED_EDGE ( 'NONE', *, *, #56, .T. ) ;
#134 = LINE ( 'NONE', #242, #143 ) ;
#135 = AXIS2_PLACEMENT_3D ( 'NONE', #274, #191, #282 ) ;
#136 = CC_DESIGN_SECURITY_CLASSIFICATION ( #110, ( #39 ) ) ;
#137 = CARTESIAN_POINT ( 'NONE',  ( 5.000000000000002665, 5.000000000000000000, 5.000000000000000000 ) ) ;
#138 = EDGE_CURVE ( 'NONE', #254, #63, #276, .T. ) ;
#139 = FACE_OUTER_BOUND ( 'NONE', #291, .T. ) ;
#140 = AXIS2_PLACEMENT_3D ( 'NONE', #94, #195, #9 ) ;
#141 = LINE ( 'NONE', #223, #32 ) ;
#142 = DIRECTION ( 'NONE',  ( -0.000000000000000000, 0.000000000000000000, 1.000000000000000000 ) ) ;
#143 = VECTOR ( 'NONE', #268, 1000.000000000000000 ) ;
#144 = CARTESIAN_POINT ( 'NONE',  ( 5.000000000000002665, 5.000000000000000000, 5.000000000000000000 ) ) ;
#145 = LINE ( 'NONE', #118, #287 ) ;
#146 = APPROVAL ( #203, 'UNSPECIFIED' ) ;
#147 = LINE ( 'NONE', #275, #318 ) ;
#148 = ORIENTED_EDGE ( 'NONE', *, *, #228, .T. ) ;
#149 = PERSON_AND_ORGANIZATION ( #235, #277 ) ;
#150 = EDGE_LOOP ( 'NONE', ( #80, #317, #270, #176 ) ) ;
#151 = DIRECTION ( 'NONE',  ( 1.000000000000000000, 0.000000000000000000, 0.000000000000000000 ) ) ;
#152 = APPLICATION_PROTOCOL_DEFINITION ( 'international standard', 'config_control_design', 1994, #192 ) ;
#153 = VECTOR ( 'NONE', #156, 1000.000000000000000 ) ;
#154 = DIRECTION ( 'NONE',  ( 0.000000000000000000, 0.000000000000000000, 1.000000000000000000 ) ) ;
#155 = EDGE_LOOP ( 'NONE', ( #13, #65, #40, #259 ) ) ;
#156 = DIRECTION ( 'NONE',  ( -0.000000000000000000, 0.000000000000000000, -1.000000000000000000 ) ) ;
#157 = ORIENTED_EDGE ( 'NONE', *, *, #160, .F. ) ;
#158 = LINE ( 'NONE', #294, #321 ) ;
#159 = VECTOR ( 'NONE', #68, 1000.000000000000000 ) ;
#160 = EDGE_CURVE ( 'NONE', #127, #313, #301, .T. ) ;
#161 = ORIENTED_EDGE ( 'NONE', *, *, #120, .T. ) ;
#162 = CARTESIAN_POINT ( 'NONE',  ( -5.000000000000000888, -4.999999999999998224, -5.000000000000000000 ) ) ;
#163 = EDGE_CURVE ( 'NONE', #36, #313, #52, .T. ) ;
#164 = ADVANCED_FACE ( 'NONE', ( #221 ), #70, .F. ) ;
#165 = CARTESIAN_POINT ( 'NONE',  ( -4.999999999999999112, 5.000000000000001776, -5.000000000000000000 ) ) ;
#166 = DIRECTION ( 'NONE',  ( -1.734723475976807094E-16, -1.000000000000000000, 0.000000000000000000 ) ) ;
#167 = AXIS2_PLACEMENT_3D ( 'NONE', #96, #142, #227 ) ;
#168 = DIRECTION ( 'NONE',  ( 0.7071067811865474617, -0.7071067811865475727, 0.000000000000000000 ) ) ;
#169 = APPROVAL_PERSON_ORGANIZATION ( #233, #146, #124 ) ;
#170 = EDGE_CURVE ( 'NONE', #297, #202, #303, .T. ) ;
#171 = FACE_OUTER_BOUND ( 'NONE', #155, .T. ) ;
#172 = CARTESIAN_POINT ( 'NONE',  ( 5.000000000000000888, 5.000000000000001776, -5.000000000000000000 ) ) ;
#173 = CC_DESIGN_PERSON_AND_ORGANIZATION_ASSIGNMENT ( #62, #128, ( #39 ) ) ;
#174 = DATE_TIME_ROLE ( 'classification_date' ) ;
#175 = VECTOR ( 'NONE', #87, 1000.000000000000000 ) ;
#176 = ORIENTED_EDGE ( 'NONE', *, *, #163, .T. ) ;
#177 = ORIENTED_EDGE ( 'NONE', *, *, #261, .F. ) ;
#178 = APPROVAL_ROLE ( '' ) ;
#179 = VERTEX_POINT ( 'NONE', #165 ) ;
#180 = VERTEX_POINT ( 'NONE', #95 ) ;
#181 = CARTESIAN_POINT ( 'NONE',  ( 5.000000000000000888, 5.000000000000001776, 5.000000000000000000 ) ) ;
#182 = APPROVAL_DATE_TIME ( #263, #12 ) ;
#183 = DIRECTION ( 'NONE',  ( 0.000000000000000000, -0.000000000000000000, 1.000000000000000000 ) ) ;
#184 = LINE ( 'NONE', #45, #159 ) ;
#185 = ORIENTED_EDGE ( 'NONE', *, *, #111, .T. ) ;
#186 = CARTESIAN_POINT ( 'NONE',  ( 5.000000000000000888, 5.000000000000001776, -5.000000000000000000 ) ) ;
#187 = DIRECTION ( 'NONE',  ( -0.7071067811865475727, -0.7071067811865474617, 0.000000000000000000 ) ) ;
#188 = CARTESIAN_POINT ( 'NONE',  ( 5.000000000000000888, 5.000000000000001776, 5.000000000000000000 ) ) ;
#189 = ADVANCED_FACE ( 'NONE', ( #139 ), #49, .F. ) ;
#190 = CARTESIAN_POINT ( 'NONE',  ( -4.999999999999999112, -5.000000000000000000, -5.000000000000000000 ) ) ;
#191 = DIRECTION ( 'NONE',  ( 1.000000000000000000, -2.220446049250313081E-16, 0.000000000000000000 ) ) ;
#192 = APPLICATION_CONTEXT ( 'configuration controlled 3d designs of mechanical parts and assemblies' ) ;
#193 = PLANE ( 'NONE',  #8 ) ;
#194 = APPROVAL_PERSON_ORGANIZATION ( #283, #12, #252 ) ;
#195 = DIRECTION ( 'NONE',  ( 0.000000000000000000, -0.000000000000000000, 1.000000000000000000 ) ) ;
#196 = VECTOR ( 'NONE', #187, 1000.000000000000000 ) ;
#197 = MANIFOLD_SOLID_BREP ( 'Í¹Ì¨-À', #132 ) ;
#198 = CARTESIAN_POINT ( 'NONE',  ( -5.000000000000000888, -4.999999999999998224, 5.000000000000000000 ) ) ;
#199 = COORDINATED_UNIVERSAL_TIME_OFFSET ( 8, 0, .AHEAD. ) ;
#200 = CALENDAR_DATE ( 2020, 22, 12 ) ;
#201 = AXIS2_PLACEMENT_3D ( 'NONE', #27, #115, #166 ) ;
#202 = VERTEX_POINT ( 'NONE', #198 ) ;
#203 = APPROVAL_STATUS ( 'not_yet_approved' ) ;
#204 = CC_DESIGN_PERSON_AND_ORGANIZATION_ASSIGNMENT ( #126, #34, ( #284 ) ) ;
#205 = ORIENTED_EDGE ( 'NONE', *, *, #138, .T. ) ;
#206 = PERSON_AND_ORGANIZATION ( #235, #277 ) ;
#207 = PERSON_AND_ORGANIZATION ( #235, #277 ) ;
#208 = ADVANCED_FACE ( 'NONE', ( #246 ), #220, .T. ) ;
#209 = ORIENTED_EDGE ( 'NONE', *, *, #228, .F. ) ;
#210 = LINE ( 'NONE', #262, #153 ) ;
#211 = EDGE_LOOP ( 'NONE', ( #205, #86, #264 ) ) ;
#212 = DIRECTION ( 'NONE',  ( 2.220446049250313081E-16, 1.000000000000000000, 0.000000000000000000 ) ) ;
#213 = ORIENTED_EDGE ( 'NONE', *, *, #100, .F. ) ;
#214 = LINE ( 'NONE', #215, #175 ) ;
#215 = CARTESIAN_POINT ( 'NONE',  ( 5.000000000000002665, 5.000000000000000000, 5.000000000000000000 ) ) ;
#216 = VECTOR ( 'NONE', #240, 1000.000000000000000 ) ;
#217 = DIRECTION ( 'NONE',  ( 1.000000000000000000, 0.000000000000000000, 0.000000000000000000 ) ) ;
#218 = CARTESIAN_POINT ( 'NONE',  ( 0.000000000000000000, 0.000000000000000000, -5.000000000000000000 ) ) ;
#219 = CC_DESIGN_APPROVAL ( #146, ( #39 ) ) ;
#220 = PLANE ( 'NONE',  #140 ) ;
#221 = FACE_OUTER_BOUND ( 'NONE', #211, .T. ) ;
#222 = ORIENTED_EDGE ( 'NONE', *, *, #261, .T. ) ;
#223 = CARTESIAN_POINT ( 'NONE',  ( -4.999999999999999112, 5.000000000000001776, 5.000000000000000000 ) ) ;
#224 = PLANE ( 'NONE',  #46 ) ;
#225 = EDGE_CURVE ( 'NONE', #180, #127, #145, .T. ) ;
#226 = ORIENTED_EDGE ( 'NONE', *, *, #61, .F. ) ;
#227 = DIRECTION ( 'NONE',  ( 1.000000000000000000, 0.000000000000000000, 0.000000000000000000 ) ) ;
#228 = EDGE_CURVE ( 'NONE', #202, #83, #147, .T. ) ;
#229 = DATE_AND_TIME ( #103, #47 ) ;
#230 = EDGE_LOOP ( 'NONE', ( #17, #286, #82, #108 ) ) ;
#231 = APPROVAL_STATUS ( 'not_yet_approved' ) ;
#232 = EDGE_LOOP ( 'NONE', ( #88, #311, #157 ) ) ;
#233 = PERSON_AND_ORGANIZATION ( #235, #277 ) ;
#234 = ADVANCED_FACE ( 'NONE', ( #75 ), #122, .F. ) ;
#235 = PERSON ( 'UNSPECIFIED', 'UNSPECIFIED', 'UNSPECIFIED', ('UNSPECIFIED'), ('UNSPECIFIED'), ('UNSPECIFIED') ) ;
#236 = EDGE_LOOP ( 'NONE', ( #315, #177, #44, #20 ) ) ;
#237 = SECURITY_CLASSIFICATION_LEVEL ( 'unclassified' ) ;
#238 = DIRECTION ( 'NONE',  ( -0.000000000000000000, -0.000000000000000000, -1.000000000000000000 ) ) ;
#239 = ORIENTED_EDGE ( 'NONE', *, *, #54, .F. ) ;
#240 = DIRECTION ( 'NONE',  ( 1.000000000000000000, -4.857225732735059864E-17, 0.000000000000000000 ) ) ;
#241 = VECTOR ( 'NONE', #247, 1000.000000000000000 ) ;
#242 = CARTESIAN_POINT ( 'NONE',  ( -4.999999999999999112, -5.000000000000000000, 5.000000000000000000 ) ) ;
#243 = PLANE ( 'NONE',  #201 ) ;
#244 = UNCERTAINTY_MEASURE_WITH_UNIT (LENGTH_MEASURE( 1.000000000000000082E-05 ), #101, 'distance_accuracy_value', 'NONE');
#245 = FACE_OUTER_BOUND ( 'NONE', #150, .T. ) ;
#246 = FACE_OUTER_BOUND ( 'NONE', #38, .T. ) ;
#247 = DIRECTION ( 'NONE',  ( 1.734723475976807094E-16, 1.000000000000000000, -0.000000000000000000 ) ) ;
#248 = DIRECTION ( 'NONE',  ( -0.000000000000000000, 0.000000000000000000, 1.000000000000000000 ) ) ;
#249 = ADVANCED_BREP_SHAPE_REPRESENTATION ( 'BK7-LPBSC-10-1064', ( #197, #98, #51 ), #123 ) ;
#250 = CARTESIAN_POINT ( 'NONE',  ( 5.000000000000000888, 5.000000000000001776, 5.000000000000000000 ) ) ;
#251 = DIRECTION ( 'NONE',  ( -0.7071067811865475727, -0.7071067811865474617, 0.000000000000000000 ) ) ;
#252 = APPROVAL_ROLE ( '' ) ;
#253 = CC_DESIGN_PERSON_AND_ORGANIZATION_ASSIGNMENT ( #285, #255, ( #19 ) ) ;
#254 = VERTEX_POINT ( 'NONE', #172 ) ;
#255 = PERSON_AND_ORGANIZATION_ROLE ( 'design_owner' ) ;
#256 = DATE_AND_TIME ( #258, #1 ) ;
#257 = AXIS2_PLACEMENT_3D ( 'NONE', #218, #4, #50 ) ;
#258 = CALENDAR_DATE ( 2020, 22, 12 ) ;
#259 = ORIENTED_EDGE ( 'NONE', *, *, #28, .T. ) ;
#260 = CARTESIAN_POINT ( 'NONE',  ( 0.000000000000000000, 0.000000000000000000, 0.000000000000000000 ) ) ;
#261 = EDGE_CURVE ( 'NONE', #83, #179, #141, .T. ) ;
#262 = CARTESIAN_POINT ( 'NONE',  ( -5.000000000000000888, -4.999999999999998224, 5.000000000000000000 ) ) ;
#263 = DATE_AND_TIME ( #55, #97 ) ;
#264 = ORIENTED_EDGE ( 'NONE', *, *, #31, .T. ) ;
#265 = LINE ( 'NONE', #320, #5 ) ;
#266 = DIRECTION ( 'NONE',  ( 0.000000000000000000, 1.000000000000000000, 0.000000000000000000 ) ) ;
#267 = ADVANCED_FACE ( 'NONE', ( #3 ), #193, .F. ) ;
#268 = DIRECTION ( 'NONE',  ( -0.000000000000000000, -0.000000000000000000, -1.000000000000000000 ) ) ;
#269 = ADVANCED_FACE ( 'NONE', ( #91 ), #304, .T. ) ;
#270 = ORIENTED_EDGE ( 'NONE', *, *, #56, .F. ) ;
#271 = LINE ( 'NONE', #137, #272 ) ;
#272 = VECTOR ( 'NONE', #89, 1000.000000000000000 ) ;
#273 = PRODUCT_RELATED_PRODUCT_CATEGORY ( 'detail', '', ( #19 ) ) ;
#274 = CARTESIAN_POINT ( 'NONE',  ( -5.000000000000000888, -4.999999999999998224, 5.000000000000000000 ) ) ;
#275 = CARTESIAN_POINT ( 'NONE',  ( -5.000000000000000888, -4.999999999999998224, 5.000000000000000000 ) ) ;
#276 = LINE ( 'NONE', #71, #196 ) ;
#277 = ORGANIZATION ( 'UNSPECIFIED', 'UNSPECIFIED', '' ) ;
#278 =( NAMED_UNIT ( * ) PLANE_ANGLE_UNIT ( ) SI_UNIT ( $, .RADIAN. ) );
#279 = ORIENTED_EDGE ( 'NONE', *, *, #163, .F. ) ;
#280 = DIRECTION ( 'NONE',  ( 0.7071067811865475727, 0.7071067811865474617, 0.000000000000000000 ) ) ;
#281 = DIRECTION ( 'NONE',  ( 1.000000000000000000, 0.000000000000000000, 0.000000000000000000 ) ) ;
#282 = DIRECTION ( 'NONE',  ( 0.000000000000000000, 0.000000000000000000, 1.000000000000000000 ) ) ;
#283 = PERSON_AND_ORGANIZATION ( #235, #277 ) ;
#284 = PRODUCT_DEFINITION ( 'UNKNOWN', '', #39, #116 ) ;
#285 = PERSON_AND_ORGANIZATION ( #235, #277 ) ;
#286 = ORIENTED_EDGE ( 'NONE', *, *, #104, .F. ) ;
#287 = VECTOR ( 'NONE', #251, 1000.000000000000000 ) ;
#288 = CC_DESIGN_APPROVAL ( #12, ( #110 ) ) ;
#289 = EDGE_LOOP ( 'NONE', ( #66, #279, #293, #185 ) ) ;
#290 = PERSON_AND_ORGANIZATION_ROLE ( 'creator' ) ;
#291 = EDGE_LOOP ( 'NONE', ( #213, #226, #148, #222 ) ) ;
#292 = DIRECTION ( 'NONE',  ( -4.857225732735059864E-17, -1.000000000000000000, 0.000000000000000000 ) ) ;
#293 = ORIENTED_EDGE ( 'NONE', *, *, #120, .F. ) ;
#294 = CARTESIAN_POINT ( 'NONE',  ( 5.000000000000002665, 5.000000000000000000, 5.000000000000000000 ) ) ;
#295 = SHAPE_DEFINITION_REPRESENTATION ( #302, #249 ) ;
#296 = APPROVAL ( #231, 'UNSPECIFIED' ) ;
#297 = VERTEX_POINT ( 'NONE', #188 ) ;
#298 = CARTESIAN_POINT ( 'NONE',  ( 5.000000000000000888, -5.000000000000000000, 5.000000000000000000 ) ) ;
#299 = DIRECTION ( 'NONE',  ( 1.000000000000000000, -4.857225732735059864E-17, 0.000000000000000000 ) ) ;
#300 = LINE ( 'NONE', #186, #216 ) ;
#301 = LINE ( 'NONE', #117, #42 ) ;
#302 = PRODUCT_DEFINITION_SHAPE ( 'NONE', 'NONE',  #284 ) ;
#303 = LINE ( 'NONE', #7, #121 ) ;
#304 = PLANE ( 'NONE',  #60 ) ;
#305 = LOCAL_TIME ( 11, 9, 36.00000000000000000, #199 ) ;
#306 = DIRECTION ( 'NONE',  ( 0.7071067811865475727, 0.7071067811865474617, 0.000000000000000000 ) ) ;
#307 = DIRECTION ( 'NONE',  ( 2.220446049250313081E-16, 1.000000000000000000, 0.000000000000000000 ) ) ;
#308 = CLOSED_SHELL ( 'NONE', ( #267, #189, #37, #208, #164 ) ) ;
#309 = DATE_TIME_ROLE ( 'creation_date' ) ;
#310 = COORDINATED_UNIVERSAL_TIME_OFFSET ( 8, 0, .AHEAD. ) ;
#311 = ORIENTED_EDGE ( 'NONE', *, *, #312, .F. ) ;
#312 = EDGE_CURVE ( 'NONE', #313, #180, #10, .T. ) ;
#313 = VERTEX_POINT ( 'NONE', #73 ) ;
#314 = CALENDAR_DATE ( 2020, 22, 12 ) ;
#315 = ORIENTED_EDGE ( 'NONE', *, *, #31, .F. ) ;
#316 = ADVANCED_FACE ( 'NONE', ( #171 ), #224, .F. ) ;
#317 = ORIENTED_EDGE ( 'NONE', *, *, #28, .F. ) ;
#318 = VECTOR ( 'NONE', #307, 1000.000000000000000 ) ;
#319 = APPROVAL_PERSON_ORGANIZATION ( #207, #296, #178 ) ;
#320 = CARTESIAN_POINT ( 'NONE',  ( 5.000000000000000888, 5.000000000000001776, 5.000000000000000000 ) ) ;
#321 = VECTOR ( 'NONE', #238, 1000.000000000000000 ) ;
ENDSEC;
END-ISO-10303-21;
